Slick Shoes - Simons Quest Guitar tab download free or play online

Guitar tab for Simons Quest by Slick Shoes free download and read or play online: file .txt, 9.92 kb has 14 views and 0 downloads.

Download guitar tab "Simons Quest" (Slick Shoes)

Slick Shoes Band name
Simons Quest Song name
Guitar tabs Tab type
9.92 kb File size
.TXT File type
14 views
0 downloads
 
Are you robot?

Simons Quest guitar tab read and play online

                    Band: Slick Shoes
Song: Simon’s Quest
Tabbed by: Mike G
Email: Danzerello@hotmail.com

Tuning: EADGBe

Intro – Guitar 2
e|---------------------------------------------------------------------------|
B|---------------------------------------------------------------------------|
G|-11-11-11-11-11--12-12-12-12-12-12-12--11-11-11-11-11--12-12-12-12-12-12-12|
D|--x--x--x--x--x---x--x--x--x--x--x--x---x--x--x--x--x---x--x--x--x--x--x--x|
A|--9--9--9--9--9--10-10-10-10-10-10-10---9--9--9--9--9--10-10-10-10-10-10-10|
E|---------------------------------------------------------------------------|

e|---------------------------------------------------------------------------|
B|---------------------------------------------------------------------------|
G|-11-11-11-11-11--9-9-9-9-9-9-9--11-11-11-11-11--9-9-9-9-9-9-9-----7--------|
D|--x--x--x--x--x--x-x-x-x-x-x-x---x--x--x--x--x--x-x-x-x-x-x-x-----7--------|
A|--9--9--9--9--9--7-7-7-7-7-7-7---9--9--9--9--9--7-7-7-7-7-7-7-----5--------|
E|---------------------------------------------------------------------------|

Guitar 1 (Comes in 3rd time guitar 2 plays intro)
e|-10(ring)-----------12-----------------10(ring)-----12^--------------------|
B|-------------------------12(ring)------------------------------------------|
G|---------------------------------------------------------------------------|
D|---------------------------------------------------------------------------|
A|---------------------------------------------------------------------------|
E|---------------------------------------------------------------------------|

 Both Guitars
e|---------------------------------------------------------------------------|
B|---------------------------------------------------------------------------|
G|---------------------------------------------------------------------------|
D|-2-2---2-2---2-2---2-------------------------------------------------------|
A|-2-2---2-2---2-2---2-------------------------------------------------------|
E|-0-0---0-0---0-0---0-------------------------------------------------------|
PM.. .   . .   . .   .


 Then – Guitar 1
e|---------------------------------------------------------------------------|
B|---------------------------------------------------------------------------|
G|---------------------------------------------------------------------------|
D|-----4h5p4p0------5------5-----5---5h7p5-------4h5p4p0------5------5-------|
A|-2-2----------3-3----2-2----/5---5---------2-2----------3-3----2-2---------|
E|---------------------------------------------------------------------------|

e|---------------------------------------------------------------------------|
B|---------------------------------------------------------------------------|
G|---------------------------------------------------------------------------|
D|---4--0-0-0h2p0------------------------------------------------------------|
A|-2-------------------------------------------------------------------------|
E|---------------------------------------------------------------------------|

Guitar 2
e|---------------------------------------------------------------------------|
B|---------------------------------------------------------------------------|
G|------------5-5-5-5-5--5-5-5-5-5--7-7-7-7-7--------------------------------|
D|-2-2-2-2-2--5-5-5-5-5--5-5-5-5-5--7-7-7-7-7--------------------------------|
A|-2-2-2-2-2--3-3-3-3-3--2-2-2-2-2--5-5-5-5-5--------------------------------|
E|-0-0-0-0-0-----------------------------------------------------------------|

Verse – Guitar 1
e|---------------------------------------------------------------------------|
B|---------------------------------------------------------------------------|
G|-9-9-9-9-9-9-9-9-9-5-5-5-5-5-5-5-5-5-7-7-7-7-7-7-7-7-7-4-4-4-4-4-4-4-4-4---|
D|-x-x-x-x-x-x-x-x-x-x-x-x-x-x-x-x-x-x-x-x-x-x-x-x-x-x-x-x-x-x-x-x-x-x-x-x---|
A|-7-7-7-7-7-7-7-7-7-3-3-3-3-3-3-3-3-3-5-5-5-5-5-5-5-5-5-2-2-2-2-2-2-2-2-2---|
E|---------------------------------------------------------------------------|

Guitar 2
e|---------------------------------------------------------------------------|
B|---------------------------------------------------------------------------|
G|-------------------5-5-5-5-5-5-5-5-5---------------------------------------|
D|-2-2-2-2-2-2-2-2-2-5-5-5-5-5-5-5-5-5-5-5-5-5-5-5-5-5-5-5-5-5-5-5-7-7-7-7-7-|
A|-2-2-2-2-2-2-2-2-2-3-3-3-3-3-3-3-3-3-5-5-5-5-5-5-5-5-5-5-5-5-5-5-7-7-7-7-7-|
E|-0-0-0-0-0-0-0-0-0-------------------2-2-2-2-2-2-2-2-2-3-3-3-3-3-5-5-5-5-5-|

Then – Guitar 1
e|---------------------------------------------------------------------------|
B|---------------------------------------------------------------------------|
G|--------------4h5p4-0h4h5--------------------------------------------------|
D|----4h5p4p0----------------------------------------------------------------|
A|---------------------------------------------------------------------------|
E|---------------------------------------------------------------------------|

Guitar 2
e|---------------------------------------------------------------------------|
B|---------------------------------------------------------------------------|
G|---------------------------------------------------------------------------|
D|-2-2---2-2---2-2---2-------------------------------------------------------|
A|-2-2---2-2---2-2---2-------------------------------------------------------|
E|-0-0---0-0---0-0---0-------------------------------------------------------|
PM.. .   . .   . .   .

Chorus – Guitar 2
e|---------------------------------------------------------------------------|
B|---------------------------------------------------------------------------|
G|-----------------------------------------7-7-7-7-7-7-7-7-7-7-5-5-5-5-5-5---|
D|-5-5-5-5-5-5-5-5-5-5-5-5-5-5-5-5-5-5-5-5-7-7-7-7-7-7-7-7-7-7-5-5-5-5-5-5---|
A|-5-5-5-5-5-5-5-5-5-5-5-5-5-5-5-5-5-5-5-5-5-5-5-5-5-5-5-5-5-5-3-3-3-3-3-3---|
E|-3-3-3-3-3-3-3-3-3-3-2-2-2-2-2-2-2-2-2-2-----------------------------------|

e|---------------------------------------------------------------------------|
B|---------------------------------------------------------------------------|
G|-7-7-7-7-7-7---------------------------------------------------------------|
D|-7-7-7-7-7-7---------------------------------------------------------------|
A|-5-5-5-5-5-5---------------------------------------------------------------|
E|---------------------------------------------------------------------------|

Guitar 1
e|---------------------------------------------------------------------------|
B|-12-12-12-12-12-12-13-13-13-13-13-13-12-12-12-12-12-12-10-10-10-10-10-10---|
G|--x--x--x--x--x--x--x--x--x--x--x--x--x--x--x--x—-x--x--x--x--x--x--x--x---|
D|--9--9--9--9--9--9-10-10-10-10-10-10--9--9--9--9--9--9--7--7--7--7--7--7---|
A|---------------------------------------------------------------------------|
E|---------------------------------------------------------------------------|

e|---------------------------------------------------------------------------|
B|-12-12-12-12-12-12-10-10-10-10-10-10-12-12-12-12-12-12---------------------|
G|--x--x--x--x--x--x--x--x—-x--x--x--x--x--x--x--x--x--x-12-12-12-14-14-14---|
D|--9--9--9--9--9--9--7--7--7--7--7--7--9--9--9--9--9--9--x--x--x--x--x--x---|
A|-------------------------------------------------------10-10-10-12-12-12---|
E|---------------------------------------------------------------------------|

Interlude
e|---------------------------------------------------------------------------|
B|---------------------------------------------------------------------------|
G|---------------------------------------------------------------------------|
D|-2-----------2-----------2-----------2-2-2-2-2-2-2-2-2-2-2-2-2-2-2-2-2-2-2-|
A|-2-----------2-----------2-----------2-2-2-2-2-2-2-2-2-2-2-2-2-2-2-2-2-2-2-|
E|-0-----------0-----------0-----------0-0-0-0-0-0-0-0-0-0-0-0-0-0-0-0-0-0-0-|
P.M.                                   . . . . . . . . . . . . . . . . . . .

Solo – Guitar 1
e|---------------------------------------------------------------------------|
B|---------------------------------------------------------------------------|
G|-----4p2p0-----------0------4p2p0-5p0-4p0-2p0---------4p2p0-----------0----|
D|-2-2-------4-4-0-0h4----2-2-------------------4p0—2-2-------4-4-0-0h4------|
A|---------------------------------------------------------------------------|
E|---------------------------------------------------------------------------|

e|---------------------------------------------------------------------------|
B|------------------------------------10p0-8p0-------------------------------|
G|-----4p2p0-2—-0-4p0-5p0-7p0--9---------------9p0-7--5-5-4h5p4--2-0-0-0-0h2-|
D|-2-2---------------------------0-------------------------------------------|
A|---------------------------------7-----------------------------------------|
E|---------------------------------------------------------------------------|

e|---------------------------------------------------------------------------|
B|---------------------------------------------------------------------------|
G|-0h2------4p2p0-----------0—2p0-0-4p0-0-5p0-0-7h9p7------------------------|
D|------2-2-------4-4-0-0h4--------------------------------------------------|
A|---------------------------------------------------------------------------|
E|---------------------------------------------------------------------------|

Guitar 2
e|---------------------------------------------------------------------------|
B|---------------------------------------------------------------------------|
G|---------------------------------------------------------------------------|
D|-2-2-2-2-2-2-5-5-5-5-5-5-5-5-5-5-5-5-7-7-7-7-7-7---------------------------|
A|-2-2-2-2-2-2-5-5-5-5-5-5-5-5-5-5-5-5-7-7-7-7-7-7---------------------------|
E|-0-0-0-0-0-0-2-2-2-2-2-2-3-3-3-3-3-3-5-5-5-5-5-5---------------------------|

Visit www.directTABS.com for more free tablature!                    

Comments for guitar tab — Simons Quest (Slick Shoes)

Other Simons Quest by Slick Shoes tabs:

Last viewed Slick Shoes tabs: