Slick Shoes - Ten Ways Bass tab download free or play online

Bass tab for Ten Ways by Slick Shoes free download and read or play online: file .txt, 1.27 kb has 16 views and 0 downloads.

Download bass tab "Ten Ways" (Slick Shoes)

Slick Shoes Band name
Ten Ways Song name
Bass tabs Tab type
1.27 kb File size
.TXT File type
16 views
0 downloads
 
Are you robot?

Ten Ways bass tab read and play online

                    







Band: Slick Shoes

Song: Ten Ways (Bass Solo)

Tabbed by: Dan (GettingNowhereGN@netscape.net)



G---7-------6-------9-------14------11-----6--------------

D------0-0-----0-0-----0-0------0-0-----0-----0----------

A-------------------------------------------------------

E-----------------------------------------------------



G---7-------9-------14-------11-------9-----6--------

D------0-0-----0-0------0-0------0-0-----0----------

A--------------------------------------------------

E-------------------------------------------------



G---------------------------9-----9---------------

D---9-9--12---9-9--11---7-7---7-7------------------ 

A---------------------------------------------------

E----------------------------------------------------



G--------7------7-----7------7------------------------

D---4-4----4-4----5-5----5-5----------------------------

A---------------------------------------------------------

E----------------------------------------------------------



Yeah. This is played really really fast, but once you get the hang 

of it you should have no problem with it. Listen to it 

to get the timing right.

It’s a very fun solo to play, so enjoy. Feel free to rate, Thanks.



                    

Comments for bass tab — Ten Ways (Slick Shoes)

Other Ten Ways by Slick Shoes tabs:

Last viewed Slick Shoes tabs: